Overall Rating: 4.0 (of 5)
Rating Votes %
1 50 ||
0 0 ||
1 50 ||
0 0 ||
0 0 ||
From 2 votes total
Rate This Lesson
Rate from 1 (poor) to 5 (best)
Send Feedback

Jason Becker Arp Sweep

Justin Harding (1760) · [archive]
Style: Metal · Level: Expert · Tempo: 360
Pages: 1

this is one of the sweeps jason does in Japan in 1989, I couldn't complete the rest of it due to the composer lacking the frets, but still I hope what I do have will inspire someone.
Heres the whole thing with tab however.

--------------------16-20/18h15-------------------|
-----------------16-------------16----------------|
--------------17-------------------15-------------|
-----------18-------------------------17----------|
-----15h18-------------------------------18-------|
--16----------------------------------------18/15-|

--------------------13-16/15h11-------------------|
-----------------13-------------11----------------|
--------------13-------------------12-------------|
-----------15-------------------------13----------|
-----11h15-------------------------------13h10----|
--13-------------------------------------------11-|

-----------------9-13/11h8----------------|
---------------9-----------9--------------|
------------10---------------8------------|
---------11--------------------10---------|
----8h11--------------------------11------|
--9----------------------------------11h8-|

-----------------9-13/15h11-------------------|
---------------9------------11----------------|
------------10-----------------12-------------|
---------11-----------------------13----------|
----8h11-----------------------------13h10----|
--9----------------------------------------11-|

-----------------8-15h11----11-------------|
---------------9---------11----11----------|
-------------8--------------------12-------|
--------6h10-------------------------13----|
------6---------------------------------13-|
--4h8--------------------------------------|

-----------------8-20h16----------------|
---------------9---------16-------------|
------------10--------------17----------|
---------10--------------------18-------|
----8h11--------------------------18/15-|
--8-------------------------------------|

----------------------13-20h16-------------------|
-------------------14----------16----------------|
-------------10/13----------------17-------------|
----------11-------------------------18----------|
-------11-------------------------------18h15----|
--9h13----------------------------------------16-|

--------------------23h18----------18h15h18h15----|
--------------18-21-------20-------------------16-|
-----------18----------------20-------------------|
-----15/18----------------------20----------------|
--16----------------------------------------------|
--------------------------------------------------|

--------------------------------9-9b---|
------------------------------9--------|
--15-----------------------10----------|
-----17-----------------11-------------|
--------18---------8h11----------------|
-----------18/15-9---------------------|
Jason Becker Arp Sweep