Overall Rating: 4.5 (of 5)
Rating Votes %
4 67 ||
1 17 ||
1 17 ||
0 0 ||
0 0 ||
From 6 votes total
Rate This Lesson
Rate from 1 (poor) to 5 (best)
Send Feedback

Sounding Evil Without Detuning

Jeremiah Rowell (122) · [archive]
Style: Theory/Reference · Level: Beginner · Tempo: 120
Pages: 1 2 3

Here's another riff using the bottom end of the E Hungarian Minor:



EX-1.a Listen
1|------------------------------------------
2|------------------------------------------
3|------------------------------------------
4|-------5---------------4---------------3--
5|-1-----3---------1-----2---------1-----1--
6|-0-0-0---0-0-0-0-0-0-0---0-0-0-0-0-0-0----


1|----------------------------------------
1|----------------------------------------
1|----------------------------------------
1|----------------------------------------  repeat from 1st Bar
1|---------5-4---4-5-4---4----------------
1|-0-0-0-0-3-2-0-2-3-2-0-2----------------


Kinda borring i guess, so we'll add a little bit to it:

Ex-1.b Listen
1|--------------------------------------------
1|--------------------------------------------
1|--------------------------------------------
1|-------5---------------4----------3---------
1|-1-----3---------1-----2----------1-----5---
1|-0-0-0---0-0-00000-0-0---0-0-0000---0-0-3---
1|--------------------------------------------
1|--------------------------------------------
1|--------------------------------------------
1|-----------------1-2------------------------
1|-------------1-2-----3-2--------------------
1|-0-0-00003-2--------------------------------


Welp, that's bout it for now. Till next time Happy Rockin' :-)